리니어 행정 100이하
--------------101~500
--------------501~1000
--------------1001~2000
--------------2000이상
LM가이드 미니츄어,기타
------------15번
------------20번
------------25번~30번
------------35번~45번
------------55번 이상
볼스크류--10파이 이하
------------11~15파이
------------16~20파이
------------21~32파이
------------33~40파이
------------41파이 이상
공압실린더 일반-기타
-----------가이드 타입
-----------테이블 타입
-----------로드레스
-----------박형 타입
-----------에어척(핑거)
-----------회전 타입
솔레노이드 밸브
밸브,레귤레이터,진공외
감속기 입력 40각
-------------60각
-------------80각
------------115,130각
------------180각 이상
------------기타 감속기
PCB
모터,드라이브,PLC
ORIENTAL 모터,드라이브
SERVO+PLC 미쓰비시
--------------야스카와
--------------파나소닉
--------------OMRON
--------------파스텍
--------------LS
--------------후지
--------------SANYO
--------------REXROTH
--------------요코가와
--------------SHARP
--------------FANUC
--------------SIEMENS
--------------KEYENCE
--------------BECKHOFF
센서류 SENSOR
파워서플라이 SMPS
인버터 INVERTER
터치스크린,모니터
렌즈,카메라,현미경
MFC
스테이지,테이블
베어링,스플라인,스크류잭
전기,검사,측정,장비
펌프,블로워,유압,기타
 






질문과 대답 Total : 4
번호 상품 내용 작성자 날짜
4

제목 슬립링a4h 구매 문의건

송향진 2023/11/21 16시
3

ITOH DENKI PM380AS-10-400-3-220 미사용품 1박스발송
제목 재고, 드라이버, 무게 문의

델타텍 2023/11/17 18시
2

미상 전장:225 행정:90 파이:10 피치:2 X-Z 중고 엑츄에이터 대당가격
제목 사이즈 문의

강필구 2023/11/14 19시
1

미상 DC MOTOR DRV DH-09-010 REV1.0 중고 대당가격
제목 문의

중고 2023/10/25 22시
1


상호 : 대구 TECH 대표 : 최기곤 , 개인정보관리책임자 : 최운우 사업자등록번호 : 765-10-01274
주소 : 경상북도 칠곡군 왜관읍 아곡5길 131-22, 고객불편신고전화: 054-973-5801 ,Fax : 054-973-5803
부가 허가번호 : / 통신판매번호 : 제2020-경북칠곡-0025호 Contact us : dg204301@naver.com
Copyright ⓒ dgfa1.com All rights reserved.