리니어 행정 100이하
--------------101~500
--------------501~1000
--------------1001~2000
--------------2000이상
LM가이드 미니츄어,기타
------------15번
------------20번
------------25번~30번
------------35번~45번
------------55번 이상
볼스크류--10파이 이하
------------11~15파이
------------16~20파이
------------21~32파이
------------33~40파이
------------41파이 이상
공압실린더 일반-기타
-----------가이드 타입
-----------테이블 타입
-----------로드레스
-----------박형 타입
-----------에어척(핑거)
-----------회전 타입
솔레노이드 밸브
밸브,레귤레이터,진공외
감속기 입력 40각
-------------60각
-------------80각
------------115,130각
------------180각 이상
------------기타 감속기
PCB
모터,드라이브,PLC
ORIENTAL 모터,드라이브
SERVO+PLC 미쓰비시
--------------야스카와
--------------파나소닉
--------------OMRON
--------------파스텍
--------------LS
--------------후지
--------------SANYO
--------------REXROTH
--------------요코가와
--------------SHARP
--------------FANUC
--------------SIEMENS
--------------KEYENCE
센서류 SENSOR
파워서플라이 SMPS
인버터 INVERTER
터치스크린,모니터
렌즈,카메라,현미경
MFC
스테이지,테이블
베어링,스플라인,스크류잭
전기,검사,측정,장비
펌프,블로워,유압,기타
 





Home > ------------33~40파이

신상품순 진열수 20

------------33~40파이
[미사용품] THK DKN4020E 전장2055 행정1690 파이40 피치20 볼스크류 미사용품 FA부품  

700,000 원 [재고 1]

[미사용품] THK DKN4020E 전장2055 행정1690 파이40 피치20 볼스크류 대당발송 미사용품 CNC부품  

800,000 원 [재고 2]

[미사용품] THK DIK4012 전장1063 행정560 파이40 피치12 볼스크류 미사용품 CNC부품  

350,000 원 [재고 1]

[미사용품] THK BLK4040 전장3062 행정2780 파이40 피치40 볼스크류 미사용품 CNC부품  

800,000 원 [재고 1]

[미사용품] THK BLK4040 전장2990 행정2700 파이40 피치40 볼스크류 미사용품 CNC부품  

700,000 원 [재고 1]

[미사용품] THK BLK4040-7.2ZZ 전장2988 볼스크류 너트없음 미사용품 CNC부품  

500,000 원 [재고 1]

[미사용품] THK WTF40802 전장3325 행정3030 파이40 피치80 볼스크류 미사용품 대당가격  

1,000,000 원 [재고 1]

[중고] THK AX 전장2030 행정1730 파이40 피치12 중고볼스크류  

250,000 원 [재고 20]

[중고] THK AX 전장1530 행정1230 파이40 피치12 중고볼스크류  

200,000 원 [재고 10]

[중고] THK BTK3610B 전장1340 행정1080 파이36 피치10 중고볼스크류 대당가격  

170,000 원 [재고 2]

[중고] HAWIN AS084056 전장1415 행정1110 파이36 피치4 중고볼스크류  

180,000 원 [재고 1]

[중고] NSK W5006 전장:780 행정:480 파이:40 피치:12 중고볼스크류  

200,000 원 [재고 1]

[중고] NSK W4006 전장:710 행정:420 파이:40 피치:12 중고볼스크류 대당가격  

180,000 원 [재고 2]

[중고] THK 중고볼스크류 BLR3636 전장:480 행정:325 파이:36 피치:36 대당가격  

160,000 원 [재고 1]

[중고] THK 중고볼스크류 BLK4040D 전장:2145 행정:1835 파이:40 피치:40 대당가격  

400,000 원 [재고 1]

[중고] THK 중고볼스크류 전장:665 행정:370 파이:36 피치:24  

170,000 원 [재고 2]

[미사용품] THK 볼스크류 전장:860 행정:450 파이:36 피치:16 미사용품  

200,000 원 [재고 1]

[중고] THK 중고볼스크류 전장:370 행정:220 파이:40 피치:40 대당가격  

130,000 원 [재고 6]

[중고] THK 중고볼스크류 KX09 전장:935 행정:560 파이:36 피치:10  

170,000 원 [재고 1]

[미사용품] THK 볼스크류너트 BTK3610B 미사용품  

100,000 원 [재고 1]

1



상호 : 대구 TECH 대표 : 최기곤 , 개인정보관리책임자 : 최운우 사업자등록번호 : 765-10-01274
주소 : 경상북도 칠곡군 왜관읍 아곡5길 131-22, 고객불편신고전화: 054-973-5801 ,Fax : 054-973-5803
부가 허가번호 : / 통신판매번호 : 제2020-경북칠곡-0025호 Contact us : dg204301@naver.com
Copyright ⓒ dgfa1.com All rights reserved.